Foro Flamenco
Posts Since Last Visit | Advanced Search | Home | Register | Login

Today's Posts | Inbox | Profile | Our Rules | Contact Admin | Log Out



Welcome to one of the most active flamenco sites on the Internet. Guests can read most posts but if you want to participate click here to register.
This site is dedicated to the memory of Paco de Lucía, Ron Mitchell, Guy Williams, Linda Elvir, Philip John Lee and Craig Eros who went ahead of us too soon.
We receive 12,200 visitors a month from 200 countries and 1.7 million page impressions a year. To advertise on this site please contact us.





Jeronimo Maya Soleá Trémolo Tabs   You are logged in as Guest
Users viewing this topic: none
  Printable Version
All Forums >>Playing >>Tabs >> Page: [1]
Login
Message<< Newer Topic  Older Topic >>
 
athrane77

Posts: 785
Joined: Feb. 6 2011
From: Reykjavik

Jeronimo Maya Soleá Trémolo Tabs 

I'm searching for the Tabs for this wonderfull Jeronimo Maya Solea Trémolo falseta:

from 1:28-2:11
  REPORT THIS POST AS INAPPROPRIATE |  Date Nov. 8 2011 13:42:13
 
athrane77

 

Posts: 785
Joined: Feb. 6 2011
 

[Deleted] 

Post has been moved to the Recycle Bin at Nov. 10 2011 18:05:13
  REPORT THIS POST AS INAPPROPRIATE |  Date Nov. 10 2011 14:44:53
 
athrane77

Posts: 785
Joined: Feb. 6 2011
From: Reykjavik

RE: Jeronimo Maya Soleá Trémolo Tabs (in reply to athrane77

Okay here's my attempt of the first part
E-0----7777----7777------0000------------12121212----10101010---12121212------
B-0-------------------------------------------------------------------------------------------------
G-9 --------------------10--------------------------------------------------9---------------------
D-9------------9--------------------------------------------10------------------------------------
A-7--8-----------------------------------8---------------------------------------------------------
E-0-------------------------------------------------------------------------------------------------

E-----7777-------7777-------8888---7777-------7777-------7777----------
B------------------------------------------------------------------------------------
G---------------------------4----------------------------------4--------------------
D--------------6----------------------------------6---------------------------------
A-------------------------------------------------------------------------------------
E--0-----------------------------------0---------------------------------------------

are there any mistakes?
  REPORT THIS POST AS INAPPROPRIATE |  Date Nov. 10 2011 19:12:01
 
athrane77

Posts: 785
Joined: Feb. 6 2011
From: Reykjavik

RE: Jeronimo Maya Soleá Trémolo Tabs (in reply to athrane77

New:
E-0----7777----7777------0000------------12121212------10101010-------10101212----
B-0-----------------------------------------------------------------------------------------
G-9--------------------10--------------------------------------------------9----------------------
D-9------------9-----------------------------------------10-----------------------------------------
A-7--8-----------------------------8--------------------------------------------------------
E-0-----------------------------------------------------------------------------------------

E----7777-------7777-----8888----7777-------7777-------7777-----------13131313--
B----------------------------------------------------------------------------------------
G------------------------4--------------------------------4---------------------------------
D------------6--------------------------------6----------------------------0--------------------
A----------------------------------------------------------------------------------------
E--0--------------------------------0---------------------------------------------------------

E------12121212-------10101010-----0000-----0000---------0000
B-------------------12--------------------------------------------------------
G--10------------------------------------------------------------13------
D-----------------------------------------------------------------------------
A----------------------------------------------------11---------------
E----------------------------------------0-------------------------
  REPORT THIS POST AS INAPPROPRIATE |  Date Nov. 12 2011 12:24:53
 
athrane77

Posts: 785
Joined: Feb. 6 2011
From: Reykjavik

RE: Jeronimo Maya Soleá Trémolo Tabs (in reply to athrane77

Better Video which isn't out of synch:

I need 1:12-1-14. its to fast to figure it out for me.
I've tabbed it from 0:48-1:12, but i don't know how i can put a document on my post, that you can see it.
  REPORT THIS POST AS INAPPROPRIATE |  Date Nov. 14 2011 20:19:23
 
athrane77

Posts: 785
Joined: Feb. 6 2011
From: Reykjavik

RE: Jeronimo Maya Soleá Trémolo Tabs (in reply to athrane77

A

E-0----7777----7777------0000------------12121212------10101010-------10101212-B-0-----------------------------------------------------------------------------------------
G-9--------------------10--------------------------------------------------9----------------------
D-9------------9-----------------------------------------10-----------------------------------------
A-7--8-----------------------------8--------------------------------------------------------
E-0-----------------------------------------------------------------------------------------

----7777-------7777-----8888----7777-------7777-------7777-----------13131313-
----------------------------------------------------------------------------------------
------------------------4--------------------------------4-----------B----------------------
------------6--------------------------------6----------------------------0------------------
----------------------------------------------------------------------------------------
--0--------------------------------0---------------------------------------------------------



------12121212-------10101010-----0000-----0000---------0000
-------------------12--------------------------------------------------------
--10------------------------------------------------------------13------
-----------------------------------------------------------------------------
----------------------------------------------------11---------------
----------------------------------------0-------------------------

----------------------------------------------------------------------0000--------
----------------------------------------------------------0000----------------------
-----9999-----8888-----10101010-----9999-------------------------A-B---
--------------------------------------------------------------------9---------------
-------------7-----------8-----------------------------7----------------------------
10-------------------------------------—0------------------------------------


-----5555-----3300---------------5555-------0000--------0000-------0000-
-------------0-----------6666--------------------------------------------------------
--5-------------------------------5--------------------------------------4-------------
-------------------------------------------------------------5--------------------------
----------------------5-----------------------3----------------------------------------
----------------------------------------------------------------------------------------

-------1111--------0000-----------------------1100-------0000------0000-----0000
----------------------------------4444-----3---------------------------------------------
-------------------------------------------------------------------------------------1-----
--3-----------2--------------------------------------------------------2----------------
-----------------------------------------------------------------------------------------
-----------------------------1---------------------------0------------------------------



This is the first part. But i still need the part from 1:14-1:21 min.
  REPORT THIS POST AS INAPPROPRIATE |  Date Nov. 30 2011 12:53:41
 
kudo

Posts: 2064
Joined: Sep. 3 2009
 

RE: Jeronimo Maya Soleá Trémolo Tabs (in reply to athrane77

I learned the falseta 3:40-3:47 in the first video from a guitar master class. I will post this falseta here and tab it as soon as i get the chance and as soon as i clean it up

_____________________________

  REPORT THIS POST AS INAPPROPRIATE |  Date Nov. 30 2011 15:48:37
 
vuduchyld

 

Posts: 170
Joined: Feb. 20 2011
 

RE: Jeronimo Maya Soleá Trémolo Tabs (in reply to athrane77

wicked little picado run at arond 2:15. I think it's just a diminished scale of some sort. Great vid! Thanks for sharing!
  REPORT THIS POST AS INAPPROPRIATE |  Date Dec. 1 2011 16:34:23
 
athrane77

Posts: 785
Joined: Feb. 6 2011
From: Reykjavik

RE: Jeronimo Maya Soleá Trémolo Tabs (in reply to athrane77

yeah, i think jerónimos music is in most cases very strange, but also unique and mindblowing.
  REPORT THIS POST AS INAPPROPRIATE |  Date Dec. 1 2011 18:04:36
 
xirdneH_imiJ

Posts: 1792
Joined: Dec. 2 2006
From: Budapest, now in Southampton

RE: Jeronimo Maya Soleá Trémolo Tabs (in reply to athrane77

|---5-5-5-5-------5-5-5-/-7-7-7-7-7-------8-8-8-8----8-8-8-8--8/10--7-7-7-7-----7-7-7-7----8-8-8-8----8/12-12-12----
|-------------------------5-/-5-5-5-5-5------------------------------------------------------8----------------------7--------------------
|--------------4^2------------------------2/5-----------------------------------------------------------7---------------------------------
|------------------------------------------------------------7-------------------------------9-----------------------------------------------
|-0-----------------------------------------------------------------------5/7---------------------------------------------------------------
|--------------------------------------------------------------------------0------------------------------------------------------------------

|---13-13-13-13------12-12-12-12-----10-10-10-10------10-10-10-10-----0-0-0-0----0-0-0-0-----0-0-0-0-------------0----
|------------------------------------------10----------------------13-13-13-13---------------------------------------------------12-------
|---------------------10----------------------------------------------------------------------------------------------------------13-----------
|-0--------------------------------------------------------------0-----------------------------------------------10----------------------------
|---------------------------------------------------------------------------------------------------11------------------------------------------
|--------------------------------------------------------------------------------------0---------------------------------------------------------
  REPORT THIS POST AS INAPPROPRIATE |  Date Dec. 14 2011 13:03:38
 
athrane77

Posts: 785
Joined: Feb. 6 2011
From: Reykjavik

RE: Jeronimo Maya Soleá Trémolo Tabs (in reply to athrane77

Thank you so much hombre!!!
But what is this?:
-7-7-7-7-7
-5-5-5-5-5
-------------
-------------
-------------
-------------

how can i play trémolo there?
  REPORT THIS POST AS INAPPROPRIATE |  Date Dec. 14 2011 15:05:18
 
xirdneH_imiJ

Posts: 1792
Joined: Dec. 2 2006
From: Budapest, now in Southampton

RE: Jeronimo Maya Soleá Trémolo Tabs (in reply to athrane77

you can :)
you slide up with your little finger, hold down the E with the ring finger...it's tricky...the two string tremolo is not so uncommon...just needs more power and a slightly different motion that doesn't concentrate on the top string...
  REPORT THIS POST AS INAPPROPRIATE |  Date Dec. 14 2011 15:21:39
 
athrane77

Posts: 785
Joined: Feb. 6 2011
From: Reykjavik

RE: Jeronimo Maya Soleá Trémolo Tabs (in reply to athrane77

Ahh yes, sounds very nice. Muchas gracias maestro :)
  REPORT THIS POST AS INAPPROPRIATE |  Date Dec. 14 2011 15:29:43
Page:   [1]
All Forums >>Playing >>Tabs >> Page: [1]
Jump to:

New Messages No New Messages
Hot Topic w/ New Messages Hot Topic w/o New Messages
Locked w/ New Messages Locked w/o New Messages
 Post New Thread
 Reply to Message
 Post New Poll
 Submit Vote
 Delete My Own Post
 Delete My Own Thread
 Rate Posts


Forum Software powered by ASP Playground Advanced Edition 2.0.5
Copyright © 2000 - 2003 ASPPlayground.NET

0.046875 secs.